  0
SECTION
  2
HEADER
  9
$ACADVER
  1
AC1009
  9
$INSBASE
 10
210.7988499999999
 20
339.3796096238154
 30
0.0
  9
$EXTMIN
 10
210.3846364376268
 20
339.3796096238154
 30
0.0
  9
$EXTMAX
 10
323.2318828564286
 20
369.6939425623731
 30
0.0
  9
$LIMMIN
 10
0.0
 20
0.0
  9
$LIMMAX
 10
420.0
 20
297.0
  9
$ORTHOMODE
 70
     1
  9
$REGENMODE
 70
     1
  9
$FILLMODE
 70
     1
  9
$QTEXTMODE
 70
     0
  9
$MIRRTEXT
 70
     0
  9
$DRAGMODE
 70
     2
  9
$LTSCALE
 40
1.0
  9
$OSMODE
 70
     0
  9
$ATTMODE
 70
     2
  9
$TEXTSIZE
 40
3.5
  9
$TRACEWID
 40
0.1
  9
$TEXTSTYLE
  7
STANDARD
  9
$CLAYER
  8
0
  9
$CELTYPE
  6
BYLAYER
  9
$CECOLOR
 62
   256
  9
$DIMSCALE
 40
1.0
  9
$DIMASZ
 40
2.0
  9
$DIMEXO
 40
1.0
  9
$DIMDLI
 40
8.0
  9
$DIMRND
 40
0.0
  9
$DIMDLE
 40
0.0
  9
$DIMEXE
 40
2.0
  9
$DIMTP
 40
0.1
  9
$DIMTM
 40
0.1
  9
$DIMTXT
 40
3.5
  9
$DIMCEN
 40
2.0
  9
$DIMTSZ
 40
0.0
  9
$DIMTOL
 70
     0
  9
$DIMLIM
 70
     0
  9
$DIMTIH
 70
     0
  9
$DIMTOH
 70
     0
  9
$DIMSE1
 70
     0
  9
$DIMSE2
 70
     0
  9
$DIMTAD
 70
     1
  9
$DIMZIN
 70
     8
  9
$DIMBLK
  1

  9
$DIMASO
 70
     1
  9
$DIMSHO
 70
     1
  9
$DIMPOST
  1

  9
$DIMAPOST
  1

  9
$DIMALT
 70
     0
  9
$DIMALTD
 70
     2
  9
$DIMALTF
 40
25.39999999999999
  9
$DIMLFAC
 40
1.0
  9
$DIMTOFL
 70
     1
  9
$DIMTVP
 40
0.0
  9
$DIMTIX
 70
     0
  9
$DIMSOXD
 70
     0
  9
$DIMSAH
 70
     0
  9
$DIMBLK1
  1

  9
$DIMBLK2
  1

  9
$DIMSTYLE
  2
*UNNAMED
  9
$DIMCLRD
 70
     0
  9
$DIMCLRE
 70
     0
  9
$DIMCLRT
 70
     0
  9
$DIMTFAC
 40
1.0
  9
$DIMGAP
 40
0.09
  9
$LUNITS
 70
     2
  9
$LUPREC
 70
     3
  9
$SKETCHINC
 40
0.1
  9
$FILLETRAD
 40
20.0
  9
$AUNITS
 70
     0
  9
$AUPREC
 70
     1
  9
$MENU
  1
acad
  9
$ELEVATION
 40
0.0
  9
$PELEVATION
 40
0.0
  9
$THICKNESS
 40
0.0
  9
$LIMCHECK
 70
     0
  9
$BLIPMODE
 70
     0
  9
$CHAMFERA
 40
5.0
  9
$CHAMFERB
 40
5.0
  9
$SKPOLY
 70
     1
  9
$TDCREATE
 40
2448889.475388310
  9
$TDUPDATE
 40
2449393.455381250
  9
$TDINDWG
 40
0.0048383102
  9
$TDUSRTIMER
 40
0.0048383102
  9
$USRTIMER
 70
     1
  9
$ANGBASE
 50
0.0
  9
$ANGDIR
 70
     0
  9
$PDMODE
 70
     3
  9
$PDSIZE
 40
0.0
  9
$PLINEWID
 40
0.0
  9
$COORDS
 70
     2
  9
$SPLFRAME
 70
     0
  9
$SPLINETYPE
 70
     6
  9
$SPLINESEGS
 70
     8
  9
$ATTDIA
 70
     1
  9
$ATTREQ
 70
     1
  9
$HANDLING
 70
     0
  9
$HANDSEED
  5
0
  9
$SURFTAB1
 70
     6
  9
$SURFTAB2
 70
     6
  9
$SURFTYPE
 70
     6
  9
$SURFU
 70
     6
  9
$SURFV
 70
     6
  9
$UCSNAME
  2

  9
$UCSORG
 10
0.0
 20
0.0
 30
0.0
  9
$UCSXDIR
 10
1.0
 20
0.0
 30
0.0
  9
$UCSYDIR
 10
0.0
 20
1.0
 30
0.0
  9
$PUCSNAME
  2

  9
$PUCSORG
 10
0.0
 20
0.0
 30
0.0
  9
$PUCSXDIR
 10
1.0
 20
0.0
 30
0.0
  9
$PUCSYDIR
 10
0.0
 20
1.0
 30
0.0
  9
$USERI1
 70
     0
  9
$USERI2
 70
     3
  9
$USERI3
 70
    15
  9
$USERI4
 70
     0
  9
$USERI5
 70
     0
  9
$USERR1
 40
1.0
  9
$USERR2
 40
1.0
  9
$USERR3
 40
0.0
  9
$USERR4
 40
1.0
  9
$USERR5
 40
0.0
  9
$WORLDVIEW
 70
     5
  9
$SHADEDGE
 70
     3
  9
$SHADEDIF
 70
    70
  9
$TILEMODE
 70
     1
  9
$MAXACTVP
 70
    16
  9
$PINSBASE
 10
0.0
 20
0.0
 30
0.0
  9
$PLIMCHECK
 70
     0
  9
$PEXTMIN
 10
1.000000000000000E+20
 20
1.000000000000000E+20
 30
1.000000000000000E+20
  9
$PEXTMAX
 10
-1.000000000000000E+20
 20
-1.000000000000000E+20
 30
-1.000000000000000E+20
  9
$PLIMMIN
 10
0.0
 20
0.0
  9
$PLIMMAX
 10
12.0
 20
9.0
  9
$UNITMODE
 70
     0
  9
$VISRETAIN
 70
     0
  9
$PLINEGEN
 70
     0
  9
$PSLTSCALE
 70
     0
  9
$TREEDEPTH
 70
  3020
  9
$DWGCODEPAGE
  3
undefined
  0
ENDSEC
  0
SECTION
  2
TABLES
  0
TABLE
  2
VPORT
 70
     2
  0
VPORT
  2
*ACTIVE
 70
     0
 10
0.0
 20
0.0
 11
1.0
 21
1.0
 12
266.8082596470277
 22
383.2852909149177
 13
0.0
 23
0.0
 14
1.0
 24
1.0
 15
10.0
 25
10.0
 16
0.0
 26
0.0
 36
1.0
 17
0.0
 27
0.0
 37
0.0
 40
87.81136258220458
 41
1.275675675675675
 42
50.0
 43
0.0
 44
0.0
 50
0.0
 51
0.0
 71
     0
 72
   100
 73
     1
 74
     0
 75
     0
 76
     0
 77
     0
 78
     0
  0
ENDTAB
  0
TABLE
  2
LTYPE
 70
     3
  0
LTYPE
  2
CONTINUOUS
 70
    64
  3
Solid line
 72
    65
 73
     0
 40
0.0
  0
LTYPE
  2
GEN
 70
    64
  3
----------------------
 72
    65
 73
     2
 40
10000000000.0
 49
0.0
 49
10000000000.0
  0
LTYPE
  2
ITEM-STRICHPUNKT
 70
    64
  3
__ . __ . __
 72
    65
 73
     4
 40
3.6
 49
2.399999999999999
 49
-0.6
 49
0.0
 49
-0.6
  0
ENDTAB
  0
TABLE
  2
LAYER
 70
     3
  0
LAYER
  2
0
 70
     0
 62
     7
  6
GEN
  0
LAYER
  2
ITEM_50
 70
    64
 62
     7
  6
CONTINUOUS
  0
LAYER
  2
ITEM_STP
 70
    64
 62
     4
  6
ITEM-STRICHPUNKT
  0
ENDTAB
  0
TABLE
  2
STYLE
 70
     1
  0
STYLE
  2
STANDARD
 70
     0
 40
0.0
 41
1.0
 50
0.0
 71
     0
 42
3.5
  3
ISO8
  4

  0
ENDTAB
  0
TABLE
  2
VIEW
 70
     0
  0
ENDTAB
  0
TABLE
  2
UCS
 70
     0
  0
ENDTAB
  0
TABLE
  2
APPID
 70
     1
  0
APPID
  2
ACAD
 70
    64
  0
ENDTAB
  0
TABLE
  2
DIMSTYLE
 70
     0
  0
ENDTAB
  0
ENDSEC
  0
SECTION
  2
BLOCKS
  0
ENDSEC
  0
SECTION
  2
ENTITIES
  0
CIRCLE
  8
ITEM_50
 10
228.7988499999999
 20
359.271447
 30
0.0
 40
1.899999999999999
  0
CIRCLE
  8
ITEM_50
 10
228.7988499999999
 20
359.271447
 30
0.0
 40
4.75
  0
LINE
  8
ITEM_50
 10
229.6648749999999
 20
360.771447
 30
0.0
 11
230.5309009999999
 21
359.271447
 31
0.0
  0
LINE
  8
ITEM_50
 10
230.5309009999999
 20
359.271447
 30
0.0
 11
229.6648749999999
 21
357.771447
 31
0.0
  0
LINE
  8
ITEM_50
 10
229.6648749999999
 20
357.771447
 30
0.0
 11
227.932825
 21
357.771447
 31
0.0
  0
LINE
  8
ITEM_50
 10
227.932825
 20
357.771447
 30
0.0
 11
227.066799
 21
359.271447
 31
0.0
  0
LINE
  8
ITEM_50
 10
227.066799
 20
359.271447
 30
0.0
 11
227.932825
 21
360.771447
 31
0.0
  0
LINE
  8
ITEM_50
 10
227.932825
 20
360.771447
 30
0.0
 11
229.6648749999999
 21
360.771447
 31
0.0
  0
LINE
  8
ITEM_STP
 10
228.7988499999999
 20
359.271447
 30
0.0
 11
222.902193
 21
359.271447
 31
0.0
  0
LINE
  8
ITEM_STP
 10
228.7988499999999
 20
359.271447
 30
0.0
 11
228.7988499999999
 21
365.168104
 31
0.0
  0
LINE
  8
ITEM_STP
 10
228.7988499999999
 20
359.271447
 30
0.0
 11
234.6955069999999
 21
359.271447
 31
0.0
  0
LINE
  8
ITEM_STP
 10
228.7988499999999
 20
359.271447
 30
0.0
 11
228.7988499999999
 21
353.37479
 31
0.0
  0
LINE
  8
ITEM_50
 10
248.2463209999999
 20
341.279447
 30
0.0
 11
253.2463209999999
 21
341.279447
 31
0.0
  0
LINE
  8
ITEM_50
 10
254.2463209999999
 20
342.279447
 30
0.0
 11
254.2463209999999
 21
368.279729
 31
0.0
  0
LINE
  8
ITEM_50
 10
253.2463209999999
 20
369.279729
 30
0.0
 11
248.2463209999999
 21
369.279729
 31
0.0
  0
ARC
  8
ITEM_50
 10
253.2463209999999
 20
368.279729
 30
0.0
 40
1.0
 50
0.0
 51
90.0
  0
ARC
  8
ITEM_50
 10
253.2463209999999
 20
342.279447
 30
0.0
 40
1.0
 50
270.0
 51
0.0
  0
ARC
  8
ITEM_50
 10
218.7988499999999
 20
363.771447
 30
0.0
 40
2.0
 50
0.0
 51
30.274328
  0
ARC
  8
ITEM_50
 10
218.7988499999999
 20
363.771447
 30
0.0
 40
2.0
 50
149.725672
 51
180.0
  0
ARC
  8
ITEM_50
 10
218.7988499999999
 20
363.771447
 30
0.0
 40
2.0
 50
180.0
 51
0.0
  0
ARC
  8
ITEM_50
 10
218.7988499999999
 20
363.771447
 30
0.0
 40
2.0
 50
30.274328
 51
149.725672
  0
LINE
  8
ITEM_50
 10
223.7988499999999
 20
345.471447
 30
0.0
 11
223.7988499999999
 21
342.279447
 31
0.0
  0
ARC
  8
ITEM_50
 10
222.724408
 20
345.971447
 30
0.0
 40
0.5
 50
209.267578
 51
270.0
  0
ARC
  8
ITEM_50
 10
214.873293
 20
345.971447
 30
0.0
 40
0.5
 50
270.0
 51
330.732422
  0
ARC
  8
ITEM_50
 10
218.7988499999999
 20
343.771447
 30
0.0
 40
4.0
 50
29.267578
 51
150.7324219999999
  0
LINE
  8
ITEM_50
 10
213.7988499999999
 20
344.9794469999999
 30
0.0
 11
216.3270089999999
 21
344.9794469999999
 31
0.0
  0
ARC
  8
ITEM_50
 10
218.7988499999999
 20
343.279447
 30
0.0
 40
3.0
 50
34.518108
 51
145.4818919999999
  0
LINE
  8
ITEM_50
 10
221.2706919999999
 20
344.9794469999999
 30
0.0
 11
223.7988499999999
 21
344.9794469999999
 31
0.0
  0
ARC
  8
ITEM_50
 10
224.7988499999999
 20
342.279447
 30
0.0
 40
1.0
 50
180.0
 51
270.0
  0
ARC
  8
ITEM_50
 10
212.7988499999999
 20
342.279447
 30
0.0
 40
1.0
 50
270.0
 51
0.0
  0
ARC
  8
ITEM_50
 10
236.7988499999999
 20
343.279447
 30
0.0
 40
2.0
 50
270.0
 51
0.0
  0
ARC
  8
ITEM_50
 10
236.7988499999999
 20
367.279729
 30
0.0
 40
2.0
 50
0.0
 51
90.0
  0
ARC
  8
ITEM_50
 10
212.7988499999999
 20
367.279729
 30
0.0
 40
2.0
 50
90.0
 51
180.0
  0
ARC
  8
ITEM_50
 10
212.7988499999999
 20
343.279447
 30
0.0
 40
2.0
 50
180.0
 51
270.0
  0
LINE
  8
ITEM_50
 10
210.7988499999999
 20
367.279729
 30
0.0
 11
210.7988499999999
 21
343.279447
 31
0.0
  0
LINE
  8
ITEM_50
 10
236.7988499999999
 20
369.279729
 30
0.0
 11
212.7988499999999
 21
369.279729
 31
0.0
  0
LINE
  8
ITEM_50
 10
238.7988499999999
 20
343.279447
 30
0.0
 11
238.7988499999999
 21
367.279729
 31
0.0
  0
LINE
  8
ITEM_50
 10
224.7988499999999
 20
341.279447
 30
0.0
 11
236.7988499999999
 21
341.279447
 31
0.0
  0
LINE
  8
ITEM_50
 10
213.7988499999999
 20
342.279447
 30
0.0
 11
213.7988499999999
 21
345.471447
 31
0.0
  0
LINE
  8
ITEM_50
 10
212.7988499999999
 20
341.279447
 30
0.0
 11
212.7988499999999
 21
341.279447
 31
0.0
  0
CIRCLE
  8
ITEM_50
 10
228.7988499999999
 20
359.271447
 30
0.0
 40
5.0
  0
LINE
  8
ITEM_50
 10
223.7988499999999
 20
345.471447
 30
0.0
 11
222.724408
 21
345.471447
 31
0.0
  0
LINE
  8
ITEM_50
 10
214.873293
 20
345.471447
 30
0.0
 11
213.7988499999999
 21
345.471447
 31
0.0
  0
LINE
  8
ITEM_50
 10
248.2463209999999
 20
369.279729
 30
0.0
 11
248.2463209999999
 21
341.279447
 31
0.0
  0
LINE
  8
ITEM_STP
 10
218.7988499999999
 20
339.3796096238154
 30
0.0
 11
218.7988499999999
 21
350.0260817514961
 31
0.0
  0
LINE
  8
ITEM_STP
 10
224.7762247083708
 20
343.279447
 30
0.0
 11
212.821475291629
 21
343.279447
 31
0.0
  0
LINE
  8
ITEM_STP
 10
257.2400789226867
 20
343.279447
 30
0.0
 11
245.2853295059449
 21
343.279447
 31
0.0
  0
LINE
  8
ITEM_STP
 10
257.2400789226867
 20
359.271447
 30
0.0
 11
245.2853295059449
 21
359.271447
 31
0.0
  0
LINE
  8
ITEM_STP
 10
276.3764403713688
 20
359.271447
 30
0.0
 11
288.3311897881106
 21
359.271447
 31
0.0
  0
LINE
  8
ITEM_STP
 10
276.3764403713688
 20
343.279447
 30
0.0
 11
288.3311897881106
 21
343.279447
 31
0.0
  0
LINE
  8
ITEM_STP
 10
308.8402945856847
 20
343.279447
 30
0.0
 11
320.7950440024264
 21
343.279447
 31
0.0
  0
LINE
  8
ITEM_STP
 10
314.8176692940555
 20
339.3796096238154
 30
0.0
 11
314.8176692940555
 21
350.0260817514961
 31
0.0
  0
LINE
  8
ITEM_50
 10
285.3701982940556
 20
369.279729
 30
0.0
 11
285.3701982940556
 21
341.279447
 31
0.0
  0
LINE
  8
ITEM_50
 10
318.7432262940556
 20
345.471447
 30
0.0
 11
319.8176692940555
 21
345.471447
 31
0.0
  0
LINE
  8
ITEM_50
 10
309.8176692940555
 20
345.471447
 30
0.0
 11
310.8921112940555
 21
345.471447
 31
0.0
  0
CIRCLE
  8
ITEM_50
 10
304.8176692940555
 20
359.271447
 30
0.0
 40
5.0
  0
LINE
  8
ITEM_50
 10
320.8176692940555
 20
341.279447
 30
0.0
 11
320.8176692940555
 21
341.279447
 31
0.0
  0
LINE
  8
ITEM_50
 10
319.8176692940555
 20
342.279447
 30
0.0
 11
319.8176692940555
 21
345.471447
 31
0.0
  0
LINE
  8
ITEM_50
 10
308.8176692940555
 20
341.279447
 30
0.0
 11
296.8176692940555
 21
341.279447
 31
0.0
  0
LINE
  8
ITEM_50
 10
294.8176692940555
 20
343.279447
 30
0.0
 11
294.8176692940555
 21
367.279729
 31
0.0
  0
LINE
  8
ITEM_50
 10
296.8176692940555
 20
369.279729
 30
0.0
 11
320.8176692940555
 21
369.279729
 31
0.0
  0
LINE
  8
ITEM_50
 10
322.8176692940555
 20
367.279729
 30
0.0
 11
322.8176692940555
 21
343.279447
 31
0.0
  0
ARC
  8
ITEM_50
 10
320.8176692940555
 20
343.279447
 30
0.0
 40
2.0
 50
270.0
 51
0.0
  0
ARC
  8
ITEM_50
 10
320.8176692940555
 20
367.279729
 30
0.0
 40
2.0
 50
0.0
 51
90.0
  0
ARC
  8
ITEM_50
 10
296.8176692940555
 20
367.279729
 30
0.0
 40
2.0
 50
90.0
 51
180.0
  0
ARC
  8
ITEM_50
 10
296.8176692940555
 20
343.279447
 30
0.0
 40
2.0
 50
180.0
 51
270.0
  0
ARC
  8
ITEM_50
 10
320.8176692940555
 20
342.279447
 30
0.0
 40
1.0
 50
180.0
 51
270.0
  0
ARC
  8
ITEM_50
 10
308.8176692940555
 20
342.279447
 30
0.0
 40
1.0
 50
270.0
 51
0.0
  0
LINE
  8
ITEM_50
 10
312.3458272940555
 20
344.9794469999999
 30
0.0
 11
309.8176692940555
 21
344.9794469999999
 31
0.0
  0
ARC
  8
ITEM_50
 10
314.8176692940555
 20
343.279447
 30
0.0
 40
3.0
 50
34.51810800000002
 51
145.481892
  0
LINE
  8
ITEM_50
 10
319.8176692940555
 20
344.9794469999999
 30
0.0
 11
317.2895102940556
 21
344.9794469999999
 31
0.0
  0
ARC
  8
ITEM_50
 10
314.8176692940555
 20
343.771447
 30
0.0
 40
4.0
 50
29.267578
 51
150.7324219999999
  0
ARC
  8
ITEM_50
 10
318.7432262940556
 20
345.971447
 30
0.0
 40
0.5
 50
209.2675779999999
 51
270.0
  0
ARC
  8
ITEM_50
 10
310.8921112940555
 20
345.971447
 30
0.0
 40
0.5
 50
270.0
 51
330.7324219999999
  0
LINE
  8
ITEM_50
 10
309.8176692940555
 20
345.471447
 30
0.0
 11
309.8176692940555
 21
342.279447
 31
0.0
  0
ARC
  8
ITEM_50
 10
314.8176692940555
 20
363.771447
 30
0.0
 40
2.0
 50
30.27432799999999
 51
149.7256719999999
  0
ARC
  8
ITEM_50
 10
314.8176692940555
 20
363.771447
 30
0.0
 40
2.0
 50
180.0
 51
0.0
  0
ARC
  8
ITEM_50
 10
314.8176692940555
 20
363.771447
 30
0.0
 40
2.0
 50
0.0
 51
30.27432799999999
  0
ARC
  8
ITEM_50
 10
314.8176692940555
 20
363.771447
 30
0.0
 40
2.0
 50
149.7256719999999
 51
180.0
  0
ARC
  8
ITEM_50
 10
280.3701982940556
 20
342.279447
 30
0.0
 40
1.0
 50
180.0
 51
270.0
  0
ARC
  8
ITEM_50
 10
280.3701982940556
 20
368.279729
 30
0.0
 40
1.0
 50
90.0
 51
180.0
  0
LINE
  8
ITEM_50
 10
280.3701982940556
 20
369.279729
 30
0.0
 11
285.3701982940556
 21
369.279729
 31
0.0
  0
LINE
  8
ITEM_50
 10
279.3701982940556
 20
342.279447
 30
0.0
 11
279.3701982940556
 21
368.279729
 31
0.0
  0
LINE
  8
ITEM_50
 10
285.3701982940556
 20
341.279447
 30
0.0
 11
280.3701982940556
 21
341.279447
 31
0.0
  0
LINE
  8
ITEM_STP
 10
304.8176692940555
 20
359.271447
 30
0.0
 11
304.8176692940555
 21
353.37479
 31
0.0
  0
LINE
  8
ITEM_STP
 10
304.8176692940555
 20
359.271447
 30
0.0
 11
298.9210122940555
 21
359.271447
 31
0.0
  0
LINE
  8
ITEM_STP
 10
304.8176692940555
 20
359.271447
 30
0.0
 11
304.8176692940555
 21
365.168104
 31
0.0
  0
LINE
  8
ITEM_STP
 10
304.8176692940555
 20
359.271447
 30
0.0
 11
310.7143262940555
 21
359.271447
 31
0.0
  0
LINE
  8
ITEM_50
 10
305.6836942940556
 20
360.771447
 30
0.0
 11
303.9516442940555
 21
360.771447
 31
0.0
  0
LINE
  8
ITEM_50
 10
306.5497202940555
 20
359.271447
 30
0.0
 11
305.6836942940556
 21
360.771447
 31
0.0
  0
LINE
  8
ITEM_50
 10
305.6836942940556
 20
357.771447
 30
0.0
 11
306.5497202940555
 21
359.271447
 31
0.0
  0
LINE
  8
ITEM_50
 10
303.9516442940555
 20
357.771447
 30
0.0
 11
305.6836942940556
 21
357.771447
 31
0.0
  0
LINE
  8
ITEM_50
 10
303.0856182940556
 20
359.271447
 30
0.0
 11
303.9516442940555
 21
357.771447
 31
0.0
  0
LINE
  8
ITEM_50
 10
303.9516442940555
 20
360.771447
 30
0.0
 11
303.0856182940556
 21
359.271447
 31
0.0
  0
CIRCLE
  8
ITEM_50
 10
304.8176692940555
 20
359.271447
 30
0.0
 40
4.75
  0
CIRCLE
  8
ITEM_50
 10
304.8176692940555
 20
359.271447
 30
0.0
 40
1.899999999999999
  0
ENDSEC
  0
EOF
